ISO-10303-21;
HEADER;
/* Generated by software containing ST-Developer
 * from STEP Tools, Inc. (www.steptools.com) 
 */

FILE_DESCRIPTION(
/* description */ (''),
/* implementation_level */ '2;1');

FILE_NAME(
/* name */ 
'C:\\Users\\Jo\X\E3o Tinoco\\Desktop\\Wolweiss - STEP\\A. Profiles\\2.
 AAG\\AAG01604802.step',
/* time_stamp */ '2024-04-29T16:16:37+01:00',
/* author */ ('project'),
/* organization */ (''),
/* preprocessor_version */ 'ST-DEVELOPER v19',
/* originating_system */ 'Autodesk Inventor 2023',
/* authorisation */ '');

FILE_SCHEMA (('AUTOMOTIVE_DESIGN { 1 0 10303 214 3 1 1 }'));
ENDSEC;

DATA;
#10=MECHANICAL_DESIGN_GEOMETRIC_PRESENTATION_REPRESENTATION('',(#13),#258);
#11=SHAPE_REPRESENTATION_RELATIONSHIP('SRR','None',#265,#12);
#12=ADVANCED_BREP_SHAPE_REPRESENTATION('',(#14),#257);
#13=STYLED_ITEM('',(#275),#14);
#14=MANIFOLD_SOLID_BREP('S\X\F3lido1',#149);
#15=FACE_OUTER_BOUND('',#23,.T.);
#16=FACE_OUTER_BOUND('',#24,.T.);
#17=FACE_OUTER_BOUND('',#25,.T.);
#18=FACE_OUTER_BOUND('',#26,.T.);
#19=FACE_OUTER_BOUND('',#27,.T.);
#20=FACE_OUTER_BOUND('',#28,.T.);
#21=FACE_OUTER_BOUND('',#29,.T.);
#22=FACE_OUTER_BOUND('',#30,.T.);
#23=EDGE_LOOP('',(#97,#98,#99,#100));
#24=EDGE_LOOP('',(#101,#102,#103,#104));
#25=EDGE_LOOP('',(#105,#106,#107,#108));
#26=EDGE_LOOP('',(#109,#110,#111,#112));
#27=EDGE_LOOP('',(#113,#114,#115,#116));
#28=EDGE_LOOP('',(#117,#118,#119,#120));
#29=EDGE_LOOP('',(#121,#122,#123,#124,#125,#126));
#30=EDGE_LOOP('',(#127,#128,#129,#130,#131,#132));
#31=LINE('',#220,#49);
#32=LINE('',#222,#50);
#33=LINE('',#224,#51);
#34=LINE('',#225,#52);
#35=LINE('',#228,#53);
#36=LINE('',#230,#54);
#37=LINE('',#231,#55);
#38=LINE('',#234,#56);
#39=LINE('',#236,#57);
#40=LINE('',#237,#58);
#41=LINE('',#240,#59);
#42=LINE('',#242,#60);
#43=LINE('',#243,#61);
#44=LINE('',#246,#62);
#45=LINE('',#248,#63);
#46=LINE('',#249,#64);
#47=LINE('',#251,#65);
#48=LINE('',#252,#66);
#49=VECTOR('',#184,0.00200000000000001);
#50=VECTOR('',#185,0.1);
#51=VECTOR('',#186,0.00200000000000001);
#52=VECTOR('',#187,0.1);
#53=VECTOR('',#190,0.046);
#54=VECTOR('',#191,0.1);
#55=VECTOR('',#192,0.046);
#56=VECTOR('',#195,0.014);
#57=VECTOR('',#196,0.1);
#58=VECTOR('',#197,0.014);
#59=VECTOR('',#200,0.00200000000000001);
#60=VECTOR('',#201,0.1);
#61=VECTOR('',#202,0.00200000000000001);
#62=VECTOR('',#205,0.016);
#63=VECTOR('',#206,0.1);
#64=VECTOR('',#207,0.016);
#65=VECTOR('',#210,0.048);
#66=VECTOR('',#211,0.048);
#67=VERTEX_POINT('',#218);
#68=VERTEX_POINT('',#219);
#69=VERTEX_POINT('',#221);
#70=VERTEX_POINT('',#223);
#71=VERTEX_POINT('',#227);
#72=VERTEX_POINT('',#229);
#73=VERTEX_POINT('',#233);
#74=VERTEX_POINT('',#235);
#75=VERTEX_POINT('',#239);
#76=VERTEX_POINT('',#241);
#77=VERTEX_POINT('',#245);
#78=VERTEX_POINT('',#247);
#79=EDGE_CURVE('',#67,#68,#31,.T.);
#80=EDGE_CURVE('',#69,#68,#32,.T.);
#81=EDGE_CURVE('',#70,#69,#33,.T.);
#82=EDGE_CURVE('',#70,#67,#34,.T.);
#83=EDGE_CURVE('',#68,#71,#35,.T.);
#84=EDGE_CURVE('',#72,#71,#36,.T.);
#85=EDGE_CURVE('',#69,#72,#37,.T.);
#86=EDGE_CURVE('',#71,#73,#38,.T.);
#87=EDGE_CURVE('',#74,#73,#39,.T.);
#88=EDGE_CURVE('',#72,#74,#40,.T.);
#89=EDGE_CURVE('',#73,#75,#41,.T.);
#90=EDGE_CURVE('',#76,#75,#42,.T.);
#91=EDGE_CURVE('',#74,#76,#43,.T.);
#92=EDGE_CURVE('',#75,#77,#44,.T.);
#93=EDGE_CURVE('',#78,#77,#45,.T.);
#94=EDGE_CURVE('',#76,#78,#46,.T.);
#95=EDGE_CURVE('',#77,#67,#47,.T.);
#96=EDGE_CURVE('',#78,#70,#48,.T.);
#97=ORIENTED_EDGE('',*,*,#79,.T.);
#98=ORIENTED_EDGE('',*,*,#80,.F.);
#99=ORIENTED_EDGE('',*,*,#81,.F.);
#100=ORIENTED_EDGE('',*,*,#82,.T.);
#101=ORIENTED_EDGE('',*,*,#83,.T.);
#102=ORIENTED_EDGE('',*,*,#84,.F.);
#103=ORIENTED_EDGE('',*,*,#85,.F.);
#104=ORIENTED_EDGE('',*,*,#80,.T.);
#105=ORIENTED_EDGE('',*,*,#86,.T.);
#106=ORIENTED_EDGE('',*,*,#87,.F.);
#107=ORIENTED_EDGE('',*,*,#88,.F.);
#108=ORIENTED_EDGE('',*,*,#84,.T.);
#109=ORIENTED_EDGE('',*,*,#89,.T.);
#110=ORIENTED_EDGE('',*,*,#90,.F.);
#111=ORIENTED_EDGE('',*,*,#91,.F.);
#112=ORIENTED_EDGE('',*,*,#87,.T.);
#113=ORIENTED_EDGE('',*,*,#92,.T.);
#114=ORIENTED_EDGE('',*,*,#93,.F.);
#115=ORIENTED_EDGE('',*,*,#94,.F.);
#116=ORIENTED_EDGE('',*,*,#90,.T.);
#117=ORIENTED_EDGE('',*,*,#95,.T.);
#118=ORIENTED_EDGE('',*,*,#82,.F.);
#119=ORIENTED_EDGE('',*,*,#96,.F.);
#120=ORIENTED_EDGE('',*,*,#93,.T.);
#121=ORIENTED_EDGE('',*,*,#81,.T.);
#122=ORIENTED_EDGE('',*,*,#85,.T.);
#123=ORIENTED_EDGE('',*,*,#88,.T.);
#124=ORIENTED_EDGE('',*,*,#91,.T.);
#125=ORIENTED_EDGE('',*,*,#94,.T.);
#126=ORIENTED_EDGE('',*,*,#96,.T.);
#127=ORIENTED_EDGE('',*,*,#79,.F.);
#128=ORIENTED_EDGE('',*,*,#95,.F.);
#129=ORIENTED_EDGE('',*,*,#92,.F.);
#130=ORIENTED_EDGE('',*,*,#89,.F.);
#131=ORIENTED_EDGE('',*,*,#86,.F.);
#132=ORIENTED_EDGE('',*,*,#83,.F.);
#133=PLANE('',#172);
#134=PLANE('',#173);
#135=PLANE('',#174);
#136=PLANE('',#175);
#137=PLANE('',#176);
#138=PLANE('',#177);
#139=PLANE('',#178);
#140=PLANE('',#179);
#141=ADVANCED_FACE('',(#15),#133,.F.);
#142=ADVANCED_FACE('',(#16),#134,.F.);
#143=ADVANCED_FACE('',(#17),#135,.F.);
#144=ADVANCED_FACE('',(#18),#136,.F.);
#145=ADVANCED_FACE('',(#19),#137,.F.);
#146=ADVANCED_FACE('',(#20),#138,.F.);
#147=ADVANCED_FACE('',(#21),#139,.T.);
#148=ADVANCED_FACE('',(#22),#140,.F.);
#149=CLOSED_SHELL('',(#141,#142,#143,#144,#145,#146,#147,#148));
#150=DERIVED_UNIT_ELEMENT(#153,1.);
#151=DERIVED_UNIT_ELEMENT(#260,-3.);
#152=DIMENSIONAL_EXPONENTS(1.,0.,0.,0.,0.,0.,0.);
#153=(
CONVERSION_BASED_UNIT('gram',#155)
MASS_UNIT()
NAMED_UNIT(#152)
);
#154=(
MASS_UNIT()
NAMED_UNIT(*)
SI_UNIT(.KILO.,.GRAM.)
);
#155=MASS_MEASURE_WITH_UNIT(MASS_MEASURE(0.001),#154);
#156=DERIVED_UNIT((#150,#151));
#157=MEASURE_REPRESENTATION_ITEM('density measure',
POSITIVE_RATIO_MEASURE(2.712),#156);
#158=PROPERTY_DEFINITION_REPRESENTATION(#163,#160);
#159=PROPERTY_DEFINITION_REPRESENTATION(#164,#161);
#160=REPRESENTATION('material name',(#162),#257);
#161=REPRESENTATION('density',(#157),#257);
#162=DESCRIPTIVE_REPRESENTATION_ITEM('SolidEdge_Aluminum, 6061-T6',
'SolidEdge_Aluminum, 6061-T6');
#163=PROPERTY_DEFINITION('material property','material name',#267);
#164=PROPERTY_DEFINITION('material property','density of part',#267);
#165=DATE_TIME_ROLE('creation_date');
#166=APPLIED_DATE_AND_TIME_ASSIGNMENT(#167,#165,(#267));
#167=DATE_AND_TIME(#168,#169);
#168=CALENDAR_DATE(2018,9,2);
#169=LOCAL_TIME(12,17,43.,#170);
#170=COORDINATED_UNIVERSAL_TIME_OFFSET(0,0,.BEHIND.);
#171=AXIS2_PLACEMENT_3D('placement',#216,#180,#181);
#172=AXIS2_PLACEMENT_3D('',#217,#182,#183);
#173=AXIS2_PLACEMENT_3D('',#226,#188,#189);
#174=AXIS2_PLACEMENT_3D('',#232,#193,#194);
#175=AXIS2_PLACEMENT_3D('',#238,#198,#199);
#176=AXIS2_PLACEMENT_3D('',#244,#203,#204);
#177=AXIS2_PLACEMENT_3D('',#250,#208,#209);
#178=AXIS2_PLACEMENT_3D('',#253,#212,#213);
#179=AXIS2_PLACEMENT_3D('',#254,#214,#215);
#180=DIRECTION('axis',(0.,0.,1.));
#181=DIRECTION('refdir',(1.,0.,0.));
#182=DIRECTION('center_axis',(0.,0.,-1.));
#183=DIRECTION('ref_axis',(-1.,0.,0.));
#184=DIRECTION('',(1.,0.,0.));
#185=DIRECTION('',(0.,-1.,0.));
#186=DIRECTION('',(1.,0.,0.));
#187=DIRECTION('',(0.,-1.,0.));
#188=DIRECTION('center_axis',(-1.,0.,0.));
#189=DIRECTION('ref_axis',(0.,0.,1.));
#190=DIRECTION('',(0.,0.,-1.));
#191=DIRECTION('',(0.,-1.,0.));
#192=DIRECTION('',(0.,0.,-1.));
#193=DIRECTION('center_axis',(0.,0.,-1.));
#194=DIRECTION('ref_axis',(-1.,0.,0.));
#195=DIRECTION('',(1.,0.,0.));
#196=DIRECTION('',(0.,-1.,0.));
#197=DIRECTION('',(1.,0.,0.));
#198=DIRECTION('center_axis',(-1.,0.,3.4694469519536E-15));
#199=DIRECTION('ref_axis',(3.4694469519536E-15,0.,1.));
#200=DIRECTION('',(-3.33066907387546E-15,0.,-1.));
#201=DIRECTION('',(0.,-1.,0.));
#202=DIRECTION('',(-3.33066907387546E-15,0.,-1.));
#203=DIRECTION('center_axis',(4.33680868994202E-16,0.,1.));
#204=DIRECTION('ref_axis',(1.,0.,-4.33680868994202E-16));
#205=DIRECTION('',(-1.,0.,4.33680868994202E-16));
#206=DIRECTION('',(0.,-1.,0.));
#207=DIRECTION('',(-1.,0.,4.33680868994202E-16));
#208=DIRECTION('center_axis',(1.,0.,-1.44560289664734E-16));
#209=DIRECTION('ref_axis',(-1.44560289664734E-16,0.,-1.));
#210=DIRECTION('',(1.44560289664734E-16,0.,1.));
#211=DIRECTION('',(1.44560289664734E-16,0.,1.));
#212=DIRECTION('center_axis',(0.,1.,0.));
#213=DIRECTION('ref_axis',(0.,0.,1.));
#214=DIRECTION('center_axis',(0.,1.,0.));
#215=DIRECTION('ref_axis',(0.,0.,1.));
#216=CARTESIAN_POINT('',(0.,0.,0.));
#217=CARTESIAN_POINT('Origin',(6.93889390390723E-18,0.1,0.048));
#218=CARTESIAN_POINT('',(6.93889390390723E-18,0.,0.048));
#219=CARTESIAN_POINT('',(0.00200000000000002,0.,0.048));
#220=CARTESIAN_POINT('',(6.93889390390723E-18,0.,0.048));
#221=CARTESIAN_POINT('',(0.00200000000000002,0.1,0.048));
#222=CARTESIAN_POINT('',(0.00200000000000002,0.1,0.048));
#223=CARTESIAN_POINT('',(6.93889390390723E-18,0.1,0.048));
#224=CARTESIAN_POINT('',(6.93889390390723E-18,0.1,0.048));
#225=CARTESIAN_POINT('',(6.93889390390723E-18,0.1,0.048));
#226=CARTESIAN_POINT('Origin',(0.00200000000000002,0.1,0.048));
#227=CARTESIAN_POINT('',(0.00200000000000002,0.,0.002));
#228=CARTESIAN_POINT('',(0.00200000000000002,0.,0.048));
#229=CARTESIAN_POINT('',(0.00200000000000002,0.1,0.002));
#230=CARTESIAN_POINT('',(0.00200000000000002,0.1,0.002));
#231=CARTESIAN_POINT('',(0.00200000000000002,0.1,0.048));
#232=CARTESIAN_POINT('Origin',(0.00200000000000002,0.1,0.002));
#233=CARTESIAN_POINT('',(0.016,0.,0.002));
#234=CARTESIAN_POINT('',(0.00200000000000002,0.,0.002));
#235=CARTESIAN_POINT('',(0.016,0.1,0.002));
#236=CARTESIAN_POINT('',(0.016,0.1,0.002));
#237=CARTESIAN_POINT('',(0.00200000000000002,0.1,0.002));
#238=CARTESIAN_POINT('Origin',(0.016,0.1,0.002));
#239=CARTESIAN_POINT('',(0.016,0.,-6.93889390390723E-18));
#240=CARTESIAN_POINT('',(0.016,0.,0.002));
#241=CARTESIAN_POINT('',(0.016,0.1,-6.93889390390723E-18));
#242=CARTESIAN_POINT('',(0.016,0.1,-6.93889390390723E-18));
#243=CARTESIAN_POINT('',(0.016,0.1,0.002));
#244=CARTESIAN_POINT('Origin',(0.016,0.1,-6.93889390390723E-18));
#245=CARTESIAN_POINT('',(0.,0.,0.));
#246=CARTESIAN_POINT('',(0.016,0.,-6.93889390390723E-18));
#247=CARTESIAN_POINT('',(0.,0.1,0.));
#248=CARTESIAN_POINT('',(0.,0.1,0.));
#249=CARTESIAN_POINT('',(0.016,0.1,-6.93889390390723E-18));
#250=CARTESIAN_POINT('Origin',(0.,0.1,0.));
#251=CARTESIAN_POINT('',(0.,0.,0.));
#252=CARTESIAN_POINT('',(0.,0.1,0.));
#253=CARTESIAN_POINT('Origin',(0.,0.1,0.));
#254=CARTESIAN_POINT('Origin',(0.,0.,0.));
#255=UNCERTAINTY_MEASURE_WITH_UNIT(LENGTH_MEASURE(1.E-5),#259,
'DISTANCE_ACCURACY_VALUE',
'Maximum model space distance between geometric entities at asserted c
onnectivities');
#256=UNCERTAINTY_MEASURE_WITH_UNIT(LENGTH_MEASURE(1.E-5),#259,
'DISTANCE_ACCURACY_VALUE',
'Maximum model space distance between geometric entities at asserted c
onnectivities');
#257=(
GEOMETRIC_REPRESENTATION_CONTEXT(3)
GLOBAL_UNCERTAINTY_ASSIGNED_CONTEXT((#255))
GLOBAL_UNIT_ASSIGNED_CONTEXT((#259,#261,#262))
REPRESENTATION_CONTEXT('','3D')
);
#258=(
GEOMETRIC_REPRESENTATION_CONTEXT(3)
GLOBAL_UNCERTAINTY_ASSIGNED_CONTEXT((#256))
GLOBAL_UNIT_ASSIGNED_CONTEXT((#259,#261,#262))
REPRESENTATION_CONTEXT('','3D')
);
#259=(
LENGTH_UNIT()
NAMED_UNIT(*)
SI_UNIT($,.METRE.)
);
#260=(
LENGTH_UNIT()
NAMED_UNIT(*)
SI_UNIT(.CENTI.,.METRE.)
);
#261=(
NAMED_UNIT(*)
PLANE_ANGLE_UNIT()
SI_UNIT($,.RADIAN.)
);
#262=(
NAMED_UNIT(*)
SI_UNIT($,.STERADIAN.)
SOLID_ANGLE_UNIT()
);
#263=SHAPE_DEFINITION_REPRESENTATION(#264,#265);
#264=PRODUCT_DEFINITION_SHAPE('',$,#267);
#265=SHAPE_REPRESENTATION('',(#171),#257);
#266=PRODUCT_DEFINITION_CONTEXT('part definition',#271,'design');
#267=PRODUCT_DEFINITION('AAG01604802','AAG01604802',#268,#266);
#268=PRODUCT_DEFINITION_FORMATION('',$,#273);
#269=PRODUCT_RELATED_PRODUCT_CATEGORY('AAG01604802','AAG01604802',(#273));
#270=APPLICATION_PROTOCOL_DEFINITION('international standard',
'automotive_design',2009,#271);
#271=APPLICATION_CONTEXT(
'Core Data for Automotive Mechanical Design Process');
#272=PRODUCT_CONTEXT('part definition',#271,'mechanical');
#273=PRODUCT('AAG01604802','AAG01604802',$,(#272));
#274=PRESENTATION_STYLE_ASSIGNMENT((#276));
#275=PRESENTATION_STYLE_ASSIGNMENT((#277));
#276=SURFACE_STYLE_USAGE(.BOTH.,#282);
#277=SURFACE_STYLE_USAGE(.BOTH.,#283);
#278=SURFACE_STYLE_RENDERING_WITH_PROPERTIES($,#290,(#280));
#279=SURFACE_STYLE_RENDERING_WITH_PROPERTIES($,#291,(#281));
#280=SURFACE_STYLE_TRANSPARENT(0.);
#281=SURFACE_STYLE_TRANSPARENT(0.);
#282=SURFACE_SIDE_STYLE('',(#284,#278));
#283=SURFACE_SIDE_STYLE('',(#285,#279));
#284=SURFACE_STYLE_FILL_AREA(#286);
#285=SURFACE_STYLE_FILL_AREA(#287);
#286=FILL_AREA_STYLE('',(#288));
#287=FILL_AREA_STYLE('',(#289));
#288=FILL_AREA_STYLE_COLOUR('',#290);
#289=FILL_AREA_STYLE_COLOUR('',#291);
#290=COLOUR_RGB('',0.749019607843137,0.749019607843137,0.749019607843137);
#291=COLOUR_RGB('',0.819607843137255,0.819607843137255,0.819607843137255);
ENDSEC;
END-ISO-10303-21;
